ISO-10303-21;
HEADER;
FILE_DESCRIPTION (( 'STEP AP203' ),
    '1' );
FILE_NAME ('Q-QZWP-R4-12.7-355-M.STEP',
    '2020-12-23T01:23:41',
    ( '' ),
    ( '' ),
    'SwSTEP 2.0',
    'SolidWorks 2020',
    '' );
FILE_SCHEMA (( 'CONFIG_CONTROL_DESIGN' ));
ENDSEC;

DATA;
#1 = PERSON_AND_ORGANIZATION ( #10, #62 ) ;
#2 = ORIENTED_EDGE ( 'NONE', *, *, #334, .F. ) ;
#3 = APPROVAL_DATE_TIME ( #259, #73 ) ;
#4 = CARTESIAN_POINT ( 'NONE',  ( 1.500000000000000888, 0.000000000000000000, 0.000000000000000000 ) ) ;
#5 = ORIENTED_EDGE ( 'NONE', *, *, #144, .F. ) ;
#6 = CALENDAR_DATE ( 2020, 23, 12 ) ;
#7 = MANIFOLD_SOLID_BREP ( 'Ðý×', #287 ) ;
#8 = EDGE_LOOP ( 'NONE', ( #326, #83, #311, #19 ) ) ;
#9 = ADVANCED_FACE ( 'NONE', ( #46 ), #22, .T. ) ;
#10 = PERSON ( 'UNSPECIFIED', 'UNSPECIFIED', 'UNSPECIFIED', ('UNSPECIFIED'), ('UNSPECIFIED'), ('UNSPECIFIED') ) ;
#11 = ORIENTED_EDGE ( 'NONE', *, *, #318, .F. ) ;
#12 = PRODUCT_DEFINITION ( 'UNKNOWN', '', #75, #178 ) ;
#13 = EDGE_LOOP ( 'NONE', ( #233, #230, #108, #11 ) ) ;
#14 = DIRECTION ( 'NONE',  ( 1.000000000000000000, 0.000000000000000000, 0.000000000000000000 ) ) ;
#15 = CARTESIAN_POINT ( 'NONE',  ( 3.000000000000000888, 0.000000000000000000, 6.349999999999999645 ) ) ;
#16 = DIRECTION ( 'NONE',  ( -1.000000000000000000, -0.000000000000000000, -0.000000000000000000 ) ) ;
#17 = DIRECTION ( 'NONE',  ( 1.000000000000000000, 0.000000000000000000, 0.000000000000000000 ) ) ;
#18 = CARTESIAN_POINT ( 'NONE',  ( -1.614212418857619014, 0.000000000000000000, 6.349999999999999645 ) ) ;
#19 = ORIENTED_EDGE ( 'NONE', *, *, #198, .T. ) ;
#20 = CARTESIAN_POINT ( 'NONE',  ( -1.614212418857619014, 0.000000000000000000, 0.000000000000000000 ) ) ;
#21 = DIRECTION ( 'NONE',  ( -1.000000000000000000, -0.000000000000000000, -0.000000000000000000 ) ) ;
#22 = CYLINDRICAL_SURFACE ( 'NONE', #162, 12.69999999999999929 ) ;
#23 = CIRCLE ( 'NONE', #285, 12.69999999999999929 ) ;
#24 = COORDINATED_UNIVERSAL_TIME_OFFSET ( 8, 0, .AHEAD. ) ;
#25 = CC_DESIGN_PERSON_AND_ORGANIZATION_ASSIGNMENT ( #1, #28, ( #12 ) ) ;
#26 = LOCAL_TIME ( 9, 23, 41.00000000000000000, #24 ) ;
#27 = CARTESIAN_POINT ( 'NONE',  ( -3.000000000000000000, 0.000000000000000000, 12.69999999999999929 ) ) ;
#28 = PERSON_AND_ORGANIZATION_ROLE ( 'creator' ) ;
#29 = DIRECTION ( 'NONE',  ( 0.000000000000000000, 0.000000000000000000, 1.000000000000000000 ) ) ;
#30 = ADVANCED_FACE ( 'NONE', ( #241 ), #92, .F. ) ;
#31 = SECURITY_CLASSIFICATION_LEVEL ( 'unclassified' ) ;
#32 = AXIS2_PLACEMENT_3D ( 'NONE', #40, #220, #255 ) ;
#33 = VERTEX_POINT ( 'NONE', #331 ) ;
#34 = EDGE_LOOP ( 'NONE', ( #165, #161 ) ) ;
#35 = ORIENTED_EDGE ( 'NONE', *, *, #196, .T. ) ;
#36 = CYLINDRICAL_SURFACE ( 'NONE', #236, 6.349999999999999645 ) ;
#37 = ORIENTED_EDGE ( 'NONE', *, *, #82, .F. ) ;
#38 = CARTESIAN_POINT ( 'NONE',  ( 1.500000000000000888, 0.000000000000000000, 6.349999999999999645 ) ) ;
#39 = DIRECTION ( 'NONE',  ( -1.000000000000000000, -0.000000000000000000, -0.000000000000000000 ) ) ;
#40 = CARTESIAN_POINT ( 'NONE',  ( -2.999999999999999556, 0.000000000000000000, 0.000000000000000000 ) ) ;
#41 = CARTESIAN_POINT ( 'NONE',  ( 3.000000000000000000, 0.000000000000000000, 0.000000000000000000 ) ) ;
#42 = CYLINDRICAL_SURFACE ( 'NONE', #163, 6.349999999999999645 ) ;
#43 = LINE ( 'NONE', #327, #315 ) ;
#44 = FACE_OUTER_BOUND ( 'NONE', #140, .T. ) ;
#45 = EDGE_CURVE ( 'NONE', #209, #68, #197, .T. ) ;
#46 = FACE_OUTER_BOUND ( 'NONE', #291, .T. ) ;
#47 = VECTOR ( 'NONE', #148, 1000.000000000000000 ) ;
#48 = ADVANCED_FACE ( 'NONE', ( #282 ), #42, .F. ) ;
#49 = APPROVAL_ROLE ( '' ) ;
#50 = CARTESIAN_POINT ( 'NONE',  ( 0.000000000000000000, 0.000000000000000000, 0.000000000000000000 ) ) ;
#51 = PRODUCT_RELATED_PRODUCT_CATEGORY ( 'detail', '', ( #98 ) ) ;
#52 = PERSON_AND_ORGANIZATION_ROLE ( 'creator' ) ;
#53 = VERTEX_POINT ( 'NONE', #15 ) ;
#54 = VERTEX_POINT ( 'NONE', #252 ) ;
#55 = CC_DESIGN_PERSON_AND_ORGANIZATION_ASSIGNMENT ( #203, #225, ( #98 ) ) ;
#56 = ORIENTED_EDGE ( 'NONE', *, *, #118, .T. ) ;
#57 = CARTESIAN_POINT ( 'NONE',  ( -2.999999999999999556, 0.000000000000000000, 6.349999999999999645 ) ) ;
#58 = ORIENTED_EDGE ( 'NONE', *, *, #224, .F. ) ;
#59 = SHAPE_DEFINITION_REPRESENTATION ( #272, #134 ) ;
#60 = CARTESIAN_POINT ( 'NONE',  ( 3.000000000000000000, 0.000000000000000000, 0.000000000000000000 ) ) ;
#61 = ORIENTED_EDGE ( 'NONE', *, *, #196, .F. ) ;
#62 = ORGANIZATION ( 'UNSPECIFIED', 'UNSPECIFIED', '' ) ;
#63 = DIRECTION ( 'NONE',  ( 0.000000000000000000, 0.000000000000000000, 1.000000000000000000 ) ) ;
#64 = CC_DESIGN_DATE_AND_TIME_ASSIGNMENT ( #199, #319, ( #271 ) ) ;
#65 = CARTESIAN_POINT ( 'NONE',  ( -1.500000000000000444, 0.000000000000000000, 6.349999999999999645 ) ) ;
#66 = DIRECTION ( 'NONE',  ( -0.000000000000000000, 0.000000000000000000, 1.000000000000000000 ) ) ;
#67 = LINE ( 'NONE', #192, #47 ) ;
#68 = VERTEX_POINT ( 'NONE', #124 ) ;
#69 = PLANE ( 'NONE',  #305 ) ;
#70 = CARTESIAN_POINT ( 'NONE',  ( -1.500000000000000444, 0.000000000000000000, 0.000000000000000000 ) ) ;
#71 = DIRECTION ( 'NONE',  ( 0.000000000000000000, 0.000000000000000000, 1.000000000000000000 ) ) ;
#72 = AXIS2_PLACEMENT_3D ( 'NONE', #4, #184, #294 ) ;
#73 = APPROVAL ( #103, 'UNSPECIFIED' ) ;
#74 = DIRECTION ( 'NONE',  ( 1.000000000000000000, 0.000000000000000000, 0.000000000000000000 ) ) ;
#75 = PRODUCT_DEFINITION_FORMATION_WITH_SPECIFIED_SOURCE ( 'ANY', '', #98, .NOT_KNOWN. ) ;
#76 =( NAMED_UNIT ( * ) SI_UNIT ( $, .STERADIAN. ) SOLID_ANGLE_UNIT ( ) );
#77 = CC_DESIGN_PERSON_AND_ORGANIZATION_ASSIGNMENT ( #180, #52, ( #75 ) ) ;
#78 = AXIS2_PLACEMENT_3D ( 'NONE', #50, #129, #74 ) ;
#79 = APPROVAL_DATE_TIME ( #309, #141 ) ;
#80 = ORIENTED_EDGE ( 'NONE', *, *, #112, .F. ) ;
#81 = ORIENTED_EDGE ( 'NONE', *, *, #250, .T. ) ;
#82 = EDGE_CURVE ( 'NONE', #68, #193, #253, .T. ) ;
#83 = ORIENTED_EDGE ( 'NONE', *, *, #136, .F. ) ;
#84 = ORIENTED_EDGE ( 'NONE', *, *, #307, .T. ) ;
#85 = AXIS2_PLACEMENT_3D ( 'NONE', #215, #249, #88 ) ;
#86 = PLANE ( 'NONE',  #189 ) ;
#87 = ADVANCED_FACE ( 'NONE', ( #246 ), #301, .F. ) ;
#88 = DIRECTION ( 'NONE',  ( 0.000000000000000000, 0.000000000000000000, 1.000000000000000000 ) ) ;
#89 = CC_DESIGN_SECURITY_CLASSIFICATION ( #271, ( #75 ) ) ;
#90 = APPROVAL_PERSON_ORGANIZATION ( #335, #73, #49 ) ;
#91 = FACE_OUTER_BOUND ( 'NONE', #292, .T. ) ;
#92 = CYLINDRICAL_SURFACE ( 'NONE', #276, 6.349999999999999645 ) ;
#93 = CARTESIAN_POINT ( 'NONE',  ( -1.614212418857619014, 7.776507174585692163E-16, -6.349999999999999645 ) ) ;
#94 = CARTESIAN_POINT ( 'NONE',  ( 3.000000000000000888, 0.000000000000000000, 0.000000000000000000 ) ) ;
#95 = LINE ( 'NONE', #18, #238 ) ;
#96 = DIRECTION ( 'NONE',  ( -1.000000000000000000, -0.000000000000000000, -0.000000000000000000 ) ) ;
#97 = CIRCLE ( 'NONE', #299, 6.349999999999999645 ) ;
#98 = PRODUCT ( 'Q-QZWP-R4-12.7-355-M', 'Q-QZWP-R4-12.7-355-M', '', ( #132 ) ) ;
#99 = DIRECTION ( 'NONE',  ( 0.000000000000000000, 0.000000000000000000, 1.000000000000000000 ) ) ;
#100 = AXIS2_PLACEMENT_3D ( 'NONE', #151, #125, #251 ) ;
#101 = DIRECTION ( 'NONE',  ( -1.000000000000000000, -0.000000000000000000, -0.000000000000000000 ) ) ;
#102 = APPROVAL_PERSON_ORGANIZATION ( #167, #288, #231 ) ;
#103 = APPROVAL_STATUS ( 'not_yet_approved' ) ;
#104 = AXIS2_PLACEMENT_3D ( 'NONE', #195, #217, #146 ) ;
#105 = CALENDAR_DATE ( 2020, 23, 12 ) ;
#106 = VERTEX_POINT ( 'NONE', #122 ) ;
#107 = CC_DESIGN_APPROVAL ( #288, ( #271 ) ) ;
#108 = ORIENTED_EDGE ( 'NONE', *, *, #82, .T. ) ;
#109 = ORIENTED_EDGE ( 'NONE', *, *, #198, .F. ) ;
#110 = AXIS2_PLACEMENT_3D ( 'NONE', #218, #16, #248 ) ;
#111 = CIRCLE ( 'NONE', #100, 6.349999999999999645 ) ;
#112 = EDGE_CURVE ( 'NONE', #33, #182, #300, .T. ) ;
#113 = ORIENTED_EDGE ( 'NONE', *, *, #112, .T. ) ;
#114 = APPLICATION_CONTEXT ( 'configuration controlled 3d designs of mechanical parts and assemblies' ) ;
#115 = DIRECTION ( 'NONE',  ( -1.000000000000000000, -0.000000000000000000, -0.000000000000000000 ) ) ;
#116 = AXIS2_PLACEMENT_3D ( 'NONE', #160, #260, #29 ) ;
#117 =( NAMED_UNIT ( * ) PLANE_ANGLE_UNIT ( ) SI_UNIT ( $, .RADIAN. ) );
#118 = EDGE_CURVE ( 'NONE', #106, #53, #256, .T. ) ;
#119 = DIRECTION ( 'NONE',  ( 0.000000000000000000, 0.000000000000000000, -1.000000000000000000 ) ) ;
#120 = LOCAL_TIME ( 9, 23, 41.00000000000000000, #186 ) ;
#121 = DIRECTION ( 'NONE',  ( -1.000000000000000000, -0.000000000000000000, -0.000000000000000000 ) ) ;
#122 = CARTESIAN_POINT ( 'NONE',  ( 3.000000000000000888, 7.776507174585692163E-16, -6.349999999999999645 ) ) ;
#123 = FACE_OUTER_BOUND ( 'NONE', #138, .T. ) ;
#124 = CARTESIAN_POINT ( 'NONE',  ( -2.999999999999999556, 7.776507174585692163E-16, -6.349999999999999645 ) ) ;
#125 = DIRECTION ( 'NONE',  ( 1.000000000000000000, 0.000000000000000000, 0.000000000000000000 ) ) ;
#126 = CARTESIAN_POINT ( 'NONE',  ( -1.614212418857619014, 0.000000000000000000, 0.000000000000000000 ) ) ;
#127 = LOCAL_TIME ( 9, 23, 41.00000000000000000, #227 ) ;
#128 = CALENDAR_DATE ( 2020, 23, 12 ) ;
#129 = DIRECTION ( 'NONE',  ( 0.000000000000000000, 0.000000000000000000, 1.000000000000000000 ) ) ;
#130 =( GEOMETRIC_REPRESENTATION_CONTEXT ( 3 ) GLOBAL_UNCERTAINTY_ASSIGNED_CONTEXT ( ( #239 ) ) GLOBAL_UNIT_ASSIGNED_CONTEXT ( ( #168, #117, #76 ) ) REPRESENTATION_CONTEXT ( 'NONE', 'WORKASPACE' ) );
#131 = EDGE_CURVE ( 'NONE', #264, #182, #313, .T. ) ;
#132 = MECHANICAL_CONTEXT ( 'NONE', #114, 'mechanical' ) ;
#133 = DATE_AND_TIME ( #200, #174 ) ;
#134 = ADVANCED_BREP_SHAPE_REPRESENTATION ( 'Q-QZWP-R4-12.7-355-M', ( #7, #78 ), #130 ) ;
#135 = PERSON_AND_ORGANIZATION ( #10, #62 ) ;
#136 = EDGE_CURVE ( 'NONE', #53, #106, #155, .T. ) ;
#137 = EDGE_LOOP ( 'NONE', ( #267, #295, #208, #237 ) ) ;
#138 = EDGE_LOOP ( 'NONE', ( #2, #5 ) ) ;
#139 = ORIENTED_EDGE ( 'NONE', *, *, #329, .T. ) ;
#140 = EDGE_LOOP ( 'NONE', ( #109, #266 ) ) ;
#141 = APPROVAL ( #308, 'UNSPECIFIED' ) ;
#142 = CARTESIAN_POINT ( 'NONE',  ( -1.500000000000000444, 6.349999999999999645, 0.000000000000000000 ) ) ;
#143 = VERTEX_POINT ( 'NONE', #38 ) ;
#144 = EDGE_CURVE ( 'NONE', #209, #211, #97, .T. ) ;
#145 = DIRECTION ( 'NONE',  ( -1.000000000000000000, -0.000000000000000000, -0.000000000000000000 ) ) ;
#146 = DIRECTION ( 'NONE',  ( 0.000000000000000000, 0.000000000000000000, 1.000000000000000000 ) ) ;
#147 = AXIS2_PLACEMENT_3D ( 'NONE', #243, #96, #173 ) ;
#148 = DIRECTION ( 'NONE',  ( -1.000000000000000000, -0.000000000000000000, -0.000000000000000000 ) ) ;
#149 = DIRECTION ( 'NONE',  ( 0.000000000000000000, 0.000000000000000000, 1.000000000000000000 ) ) ;
#150 = DIRECTION ( 'NONE',  ( -1.000000000000000000, -0.000000000000000000, -0.000000000000000000 ) ) ;
#151 = CARTESIAN_POINT ( 'NONE',  ( -1.500000000000000444, 0.000000000000000000, 0.000000000000000000 ) ) ;
#152 = ADVANCED_FACE ( 'NONE', ( #44 ), #213, .F. ) ;
#153 = PERSON_AND_ORGANIZATION ( #10, #62 ) ;
#154 = EDGE_CURVE ( 'NONE', #193, #68, #322, .T. ) ;
#155 = CIRCLE ( 'NONE', #234, 6.349999999999999645 ) ;
#156 = CALENDAR_DATE ( 2020, 23, 12 ) ;
#157 = PERSON_AND_ORGANIZATION ( #10, #62 ) ;
#158 = ORIENTED_EDGE ( 'NONE', *, *, #224, .T. ) ;
#159 = ORIENTED_EDGE ( 'NONE', *, *, #131, .F. ) ;
#160 = CARTESIAN_POINT ( 'NONE',  ( -3.000000000000000000, 0.000000000000000000, 0.000000000000000000 ) ) ;
#161 = ORIENTED_EDGE ( 'NONE', *, *, #329, .F. ) ;
#162 = AXIS2_PLACEMENT_3D ( 'NONE', #126, #278, #219 ) ;
#163 = AXIS2_PLACEMENT_3D ( 'NONE', #328, #275, #71 ) ;
#164 = DIRECTION ( 'NONE',  ( -0.000000000000000000, 0.000000000000000000, 1.000000000000000000 ) ) ;
#165 = ORIENTED_EDGE ( 'NONE', *, *, #250, .F. ) ;
#166 = VECTOR ( 'NONE', #115, 1000.000000000000000 ) ;
#167 = PERSON_AND_ORGANIZATION ( #10, #62 ) ;
#168 =( LENGTH_UNIT ( ) NAMED_UNIT ( * ) SI_UNIT ( .MILLI., .METRE. ) );
#169 = CARTESIAN_POINT ( 'NONE',  ( -1.614212418857619014, 0.000000000000000000, 12.69999999999999929 ) ) ;
#170 = DIRECTION ( 'NONE',  ( -1.000000000000000000, 0.000000000000000000, -0.000000000000000000 ) ) ;
#171 = CARTESIAN_POINT ( 'NONE',  ( -1.614212418857619014, 0.000000000000000000, 0.000000000000000000 ) ) ;
#172 = DIRECTION ( 'NONE',  ( 0.000000000000000000, 0.000000000000000000, -1.000000000000000000 ) ) ;
#173 = DIRECTION ( 'NONE',  ( 0.000000000000000000, 0.000000000000000000, 1.000000000000000000 ) ) ;
#174 = LOCAL_TIME ( 9, 23, 41.00000000000000000, #179 ) ;
#175 = FACE_OUTER_BOUND ( 'NONE', #270, .T. ) ;
#176 = DIRECTION ( 'NONE',  ( -1.000000000000000000, -0.000000000000000000, -0.000000000000000000 ) ) ;
#177 = CARTESIAN_POINT ( 'NONE',  ( -1.614212418857619014, 7.776507174585692163E-16, -6.349999999999999645 ) ) ;
#178 = DESIGN_CONTEXT ( 'detailed design', #235, 'design' ) ;
#179 = COORDINATED_UNIVERSAL_TIME_OFFSET ( 8, 0, .AHEAD. ) ;
#180 = PERSON_AND_ORGANIZATION ( #10, #62 ) ;
#181 = ORIENTED_EDGE ( 'NONE', *, *, #131, .T. ) ;
#182 = VERTEX_POINT ( 'NONE', #27 ) ;
#183 = EDGE_CURVE ( 'NONE', #321, #143, #212, .T. ) ;
#184 = DIRECTION ( 'NONE',  ( -1.000000000000000000, -0.000000000000000000, -0.000000000000000000 ) ) ;
#185 = EDGE_LOOP ( 'NONE', ( #316, #56 ) ) ;
#186 = COORDINATED_UNIVERSAL_TIME_OFFSET ( 8, 0, .AHEAD. ) ;
#187 = DIRECTION ( 'NONE',  ( 0.000000000000000000, 0.000000000000000000, -1.000000000000000000 ) ) ;
#188 = CARTESIAN_POINT ( 'NONE',  ( -1.614212418857619014, 0.000000000000000000, 0.000000000000000000 ) ) ;
#189 = AXIS2_PLACEMENT_3D ( 'NONE', #325, #303, #172 ) ;
#190 = LINE ( 'NONE', #93, #166 ) ;
#191 = DIRECTION ( 'NONE',  ( -1.000000000000000000, 0.000000000000000000, -0.000000000000000000 ) ) ;
#192 = CARTESIAN_POINT ( 'NONE',  ( -1.614212418857619014, 1.555301434917138433E-15, -12.69999999999999929 ) ) ;
#193 = VERTEX_POINT ( 'NONE', #57 ) ;
#194 = DIRECTION ( 'NONE',  ( -1.000000000000000000, -0.000000000000000000, -0.000000000000000000 ) ) ;
#195 = CARTESIAN_POINT ( 'NONE',  ( 3.000000000000000888, 0.000000000000000000, 0.000000000000000000 ) ) ;
#196 = EDGE_CURVE ( 'NONE', #182, #264, #263, .T. ) ;
#197 = LINE ( 'NONE', #177, #244 ) ;
#198 = EDGE_CURVE ( 'NONE', #143, #321, #333, .T. ) ;
#199 = DATE_AND_TIME ( #128, #26 ) ;
#200 = CALENDAR_DATE ( 2020, 23, 12 ) ;
#201 = DATE_TIME_ROLE ( 'creation_date' ) ;
#202 = ORIENTED_EDGE ( 'NONE', *, *, #154, .F. ) ;
#203 = PERSON_AND_ORGANIZATION ( #10, #62 ) ;
#204 = ADVANCED_FACE ( 'NONE', ( #242, #91 ), #86, .F. ) ;
#205 = ORIENTED_EDGE ( 'NONE', *, *, #183, .T. ) ;
#206 = AXIS2_PLACEMENT_3D ( 'NONE', #171, #150, #63 ) ;
#207 = AXIS2_PLACEMENT_3D ( 'NONE', #41, #210, #149 ) ;
#208 = ORIENTED_EDGE ( 'NONE', *, *, #318, .T. ) ;
#209 = VERTEX_POINT ( 'NONE', #277 ) ;
#210 = DIRECTION ( 'NONE',  ( -1.000000000000000000, -0.000000000000000000, -0.000000000000000000 ) ) ;
#211 = VERTEX_POINT ( 'NONE', #65 ) ;
#212 = CIRCLE ( 'NONE', #72, 6.349999999999999645 ) ;
#213 = PLANE ( 'NONE',  #283 ) ;
#214 = CARTESIAN_POINT ( 'NONE',  ( 3.000000000000000000, 12.69999999999999929, 0.000000000000000000 ) ) ;
#215 = CARTESIAN_POINT ( 'NONE',  ( -2.999999999999999556, 0.000000000000000000, 0.000000000000000000 ) ) ;
#216 = CYLINDRICAL_SURFACE ( 'NONE', #110, 12.69999999999999929 ) ;
#217 = DIRECTION ( 'NONE',  ( -1.000000000000000000, -0.000000000000000000, -0.000000000000000000 ) ) ;
#218 = CARTESIAN_POINT ( 'NONE',  ( -1.614212418857619014, 0.000000000000000000, 0.000000000000000000 ) ) ;
#219 = DIRECTION ( 'NONE',  ( 0.000000000000000000, 0.000000000000000000, 1.000000000000000000 ) ) ;
#220 = DIRECTION ( 'NONE',  ( -1.000000000000000000, -0.000000000000000000, -0.000000000000000000 ) ) ;
#221 = AXIS2_PLACEMENT_3D ( 'NONE', #228, #145, #240 ) ;
#222 = APPLICATION_PROTOCOL_DEFINITION ( 'international standard', 'config_control_design', 1994, #114 ) ;
#223 = AXIS2_PLACEMENT_3D ( 'NONE', #214, #170, #164 ) ;
#224 = EDGE_CURVE ( 'NONE', #54, #264, #67, .T. ) ;
#225 = PERSON_AND_ORGANIZATION_ROLE ( 'design_owner' ) ;
#226 = CC_DESIGN_PERSON_AND_ORGANIZATION_ASSIGNMENT ( #157, #262, ( #75 ) ) ;
#227 = COORDINATED_UNIVERSAL_TIME_OFFSET ( 8, 0, .AHEAD. ) ;
#228 = CARTESIAN_POINT ( 'NONE',  ( 1.500000000000000888, 0.000000000000000000, 0.000000000000000000 ) ) ;
#229 = PERSON_AND_ORGANIZATION_ROLE ( 'classification_officer' ) ;
#230 = ORIENTED_EDGE ( 'NONE', *, *, #45, .T. ) ;
#231 = APPROVAL_ROLE ( '' ) ;
#232 = ORIENTED_EDGE ( 'NONE', *, *, #332, .F. ) ;
#233 = ORIENTED_EDGE ( 'NONE', *, *, #334, .T. ) ;
#234 = AXIS2_PLACEMENT_3D ( 'NONE', #94, #273, #304 ) ;
#235 = APPLICATION_CONTEXT ( 'configuration controlled 3d designs of mechanical parts and assemblies' ) ;
#236 = AXIS2_PLACEMENT_3D ( 'NONE', #20, #194, #99 ) ;
#237 = ORIENTED_EDGE ( 'NONE', *, *, #154, .T. ) ;
#238 = VECTOR ( 'NONE', #121, 1000.000000000000000 ) ;
#239 = UNCERTAINTY_MEASURE_WITH_UNIT (LENGTH_MEASURE( 1.000000000000000082E-05 ), #168, 'distance_accuracy_value', 'NONE');
#240 = DIRECTION ( 'NONE',  ( 0.000000000000000000, 0.000000000000000000, 1.000000000000000000 ) ) ;
#241 = FACE_OUTER_BOUND ( 'NONE', #8, .T. ) ;
#242 = FACE_BOUND ( 'NONE', #298, .T. ) ;
#243 = CARTESIAN_POINT ( 'NONE',  ( -3.000000000000000000, 0.000000000000000000, 0.000000000000000000 ) ) ;
#244 = VECTOR ( 'NONE', #101, 1000.000000000000000 ) ;
#245 = PLANE ( 'NONE',  #223 ) ;
#246 = FACE_OUTER_BOUND ( 'NONE', #137, .T. ) ;
#247 = LOCAL_TIME ( 9, 23, 41.00000000000000000, #289 ) ;
#248 = DIRECTION ( 'NONE',  ( 0.000000000000000000, 0.000000000000000000, 1.000000000000000000 ) ) ;
#249 = DIRECTION ( 'NONE',  ( -1.000000000000000000, -0.000000000000000000, -0.000000000000000000 ) ) ;
#250 = EDGE_CURVE ( 'NONE', #33, #54, #279, .T. ) ;
#251 = DIRECTION ( 'NONE',  ( 0.000000000000000000, 0.000000000000000000, -1.000000000000000000 ) ) ;
#252 = CARTESIAN_POINT ( 'NONE',  ( 3.000000000000000000, 1.555301434917138433E-15, -12.69999999999999929 ) ) ;
#253 = CIRCLE ( 'NONE', #85, 6.349999999999999645 ) ;
#254 = APPROVAL_ROLE ( '' ) ;
#255 = DIRECTION ( 'NONE',  ( 0.000000000000000000, 0.000000000000000000, 1.000000000000000000 ) ) ;
#256 = CIRCLE ( 'NONE', #104, 6.349999999999999645 ) ;
#257 = ADVANCED_FACE ( 'NONE', ( #330 ), #216, .T. ) ;
#258 = ADVANCED_FACE ( 'NONE', ( #175 ), #36, .F. ) ;
#259 = DATE_AND_TIME ( #156, #127 ) ;
#260 = DIRECTION ( 'NONE',  ( -1.000000000000000000, -0.000000000000000000, -0.000000000000000000 ) ) ;
#261 = ADVANCED_FACE ( 'NONE', ( #123 ), #69, .F. ) ;
#262 = PERSON_AND_ORGANIZATION_ROLE ( 'design_supplier' ) ;
#263 = CIRCLE ( 'NONE', #116, 12.69999999999999929 ) ;
#264 = VERTEX_POINT ( 'NONE', #280 ) ;
#265 = APPROVAL_PERSON_ORGANIZATION ( #153, #141, #254 ) ;
#266 = ORIENTED_EDGE ( 'NONE', *, *, #183, .F. ) ;
#267 = ORIENTED_EDGE ( 'NONE', *, *, #45, .F. ) ;
#268 = EDGE_LOOP ( 'NONE', ( #81, #158, #61, #80 ) ) ;
#269 = FACE_OUTER_BOUND ( 'NONE', #34, .T. ) ;
#270 = EDGE_LOOP ( 'NONE', ( #312, #84, #205, #232 ) ) ;
#271 = SECURITY_CLASSIFICATION ( '', '', #31 ) ;
#272 = PRODUCT_DEFINITION_SHAPE ( 'NONE', 'NONE',  #12 ) ;
#273 = DIRECTION ( 'NONE',  ( -1.000000000000000000, -0.000000000000000000, -0.000000000000000000 ) ) ;
#274 = DIRECTION ( 'NONE',  ( -1.000000000000000000, -0.000000000000000000, -0.000000000000000000 ) ) ;
#275 = DIRECTION ( 'NONE',  ( -1.000000000000000000, -0.000000000000000000, -0.000000000000000000 ) ) ;
#276 = AXIS2_PLACEMENT_3D ( 'NONE', #188, #176, #281 ) ;
#277 = CARTESIAN_POINT ( 'NONE',  ( -1.500000000000000444, 7.776507174585692163E-16, -6.349999999999999645 ) ) ;
#278 = DIRECTION ( 'NONE',  ( -1.000000000000000000, -0.000000000000000000, -0.000000000000000000 ) ) ;
#279 = CIRCLE ( 'NONE', #207, 12.69999999999999929 ) ;
#280 = CARTESIAN_POINT ( 'NONE',  ( -3.000000000000000000, 1.555301434917138433E-15, -12.69999999999999929 ) ) ;
#281 = DIRECTION ( 'NONE',  ( 0.000000000000000000, 0.000000000000000000, 1.000000000000000000 ) ) ;
#282 = FACE_OUTER_BOUND ( 'NONE', #13, .T. ) ;
#283 = AXIS2_PLACEMENT_3D ( 'NONE', #324, #191, #66 ) ;
#284 = CC_DESIGN_APPROVAL ( #73, ( #12 ) ) ;
#285 = AXIS2_PLACEMENT_3D ( 'NONE', #60, #39, #323 ) ;
#286 = APPLICATION_PROTOCOL_DEFINITION ( 'international standard', 'config_control_design', 1994, #235 ) ;
#287 = CLOSED_SHELL ( 'NONE', ( #257, #48, #258, #152, #30, #87, #204, #9, #293, #261 ) ) ;
#288 = APPROVAL ( #296, 'UNSPECIFIED' ) ;
#289 = COORDINATED_UNIVERSAL_TIME_OFFSET ( 8, 0, .AHEAD. ) ;
#290 = VECTOR ( 'NONE', #21, 1000.000000000000000 ) ;
#291 = EDGE_LOOP ( 'NONE', ( #58, #139, #113, #159 ) ) ;
#292 = EDGE_LOOP ( 'NONE', ( #35, #181 ) ) ;
#293 = ADVANCED_FACE ( 'NONE', ( #269, #297 ), #245, .F. ) ;
#294 = DIRECTION ( 'NONE',  ( 0.000000000000000000, 0.000000000000000000, 1.000000000000000000 ) ) ;
#295 = ORIENTED_EDGE ( 'NONE', *, *, #144, .T. ) ;
#296 = APPROVAL_STATUS ( 'not_yet_approved' ) ;
#297 = FACE_BOUND ( 'NONE', #185, .T. ) ;
#298 = EDGE_LOOP ( 'NONE', ( #202, #37 ) ) ;
#299 = AXIS2_PLACEMENT_3D ( 'NONE', #70, #17, #119 ) ;
#300 = LINE ( 'NONE', #169, #290 ) ;
#301 = CYLINDRICAL_SURFACE ( 'NONE', #206, 6.349999999999999645 ) ;
#302 = CC_DESIGN_DATE_AND_TIME_ASSIGNMENT ( #133, #201, ( #12 ) ) ;
#303 = DIRECTION ( 'NONE',  ( 1.000000000000000000, 0.000000000000000000, 0.000000000000000000 ) ) ;
#304 = DIRECTION ( 'NONE',  ( 0.000000000000000000, 0.000000000000000000, 1.000000000000000000 ) ) ;
#305 = AXIS2_PLACEMENT_3D ( 'NONE', #142, #14, #187 ) ;
#306 = CC_DESIGN_PERSON_AND_ORGANIZATION_ASSIGNMENT ( #135, #229, ( #271 ) ) ;
#307 = EDGE_CURVE ( 'NONE', #106, #321, #190, .T. ) ;
#308 = APPROVAL_STATUS ( 'not_yet_approved' ) ;
#309 = DATE_AND_TIME ( #105, #247 ) ;
#310 = CC_DESIGN_APPROVAL ( #141, ( #75 ) ) ;
#311 = ORIENTED_EDGE ( 'NONE', *, *, #332, .T. ) ;
#312 = ORIENTED_EDGE ( 'NONE', *, *, #118, .F. ) ;
#313 = CIRCLE ( 'NONE', #147, 12.69999999999999929 ) ;
#314 = DATE_AND_TIME ( #6, #120 ) ;
#315 = VECTOR ( 'NONE', #274, 1000.000000000000000 ) ;
#316 = ORIENTED_EDGE ( 'NONE', *, *, #136, .T. ) ;
#317 = APPROVAL_DATE_TIME ( #314, #288 ) ;
#318 = EDGE_CURVE ( 'NONE', #211, #193, #43, .T. ) ;
#319 = DATE_TIME_ROLE ( 'classification_date' ) ;
#320 = CARTESIAN_POINT ( 'NONE',  ( 1.500000000000000888, 7.776507174585692163E-16, -6.349999999999999645 ) ) ;
#321 = VERTEX_POINT ( 'NONE', #320 ) ;
#322 = CIRCLE ( 'NONE', #32, 6.349999999999999645 ) ;
#323 = DIRECTION ( 'NONE',  ( 0.000000000000000000, 0.000000000000000000, 1.000000000000000000 ) ) ;
#324 = CARTESIAN_POINT ( 'NONE',  ( 1.500000000000000444, 6.349999999999999645, 0.000000000000000000 ) ) ;
#325 = CARTESIAN_POINT ( 'NONE',  ( -3.000000000000000000, 6.349999999999999645, 0.000000000000000000 ) ) ;
#326 = ORIENTED_EDGE ( 'NONE', *, *, #307, .F. ) ;
#327 = CARTESIAN_POINT ( 'NONE',  ( -1.614212418857619014, 0.000000000000000000, 6.349999999999999645 ) ) ;
#328 = CARTESIAN_POINT ( 'NONE',  ( -1.614212418857619014, 0.000000000000000000, 0.000000000000000000 ) ) ;
#329 = EDGE_CURVE ( 'NONE', #54, #33, #23, .T. ) ;
#330 = FACE_OUTER_BOUND ( 'NONE', #268, .T. ) ;
#331 = CARTESIAN_POINT ( 'NONE',  ( 3.000000000000000000, 0.000000000000000000, 12.69999999999999929 ) ) ;
#332 = EDGE_CURVE ( 'NONE', #53, #143, #95, .T. ) ;
#333 = CIRCLE ( 'NONE', #221, 6.349999999999999645 ) ;
#334 = EDGE_CURVE ( 'NONE', #211, #209, #111, .T. ) ;
#335 = PERSON_AND_ORGANIZATION ( #10, #62 ) ;
ENDSEC;
END-ISO-10303-21;
